ISO-10303-21;
HEADER;
FILE_DESCRIPTION (( 'STEP AP203' ),
    '1' );
FILE_NAME ('Q-AZHWP-10-1053-M.STEP',
    '2020-12-22T09:05:13',
    ( '' ),
    ( '' ),
    'SwSTEP 2.0',
    'SolidWorks 2020',
    '' );
FILE_SCHEMA (( 'CONFIG_CONTROL_DESIGN' ));
ENDSEC;

DATA;
#1 = LINE ( 'NONE', #285, #106 ) ;
#2 = DIRECTION ( 'NONE',  ( -1.000000000000000000, -0.000000000000000000, -0.000000000000000000 ) ) ;
#3 = CARTESIAN_POINT ( 'NONE',  ( 1.250000000000000222, 5.000000000000000000, 0.000000000000000000 ) ) ;
#4 = CARTESIAN_POINT ( 'NONE',  ( 3.000000000000000000, 0.000000000000000000, 0.000000000000000000 ) ) ;
#5 = LOCAL_TIME ( 17, 5, 13.00000000000000000, #149 ) ;
#6 = DIRECTION ( 'NONE',  ( 1.000000000000000000, 0.000000000000000000, 0.000000000000000000 ) ) ;
#7 = VERTEX_POINT ( 'NONE', #195 ) ;
#8 = ORIENTED_EDGE ( 'NONE', *, *, #223, .F. ) ;
#9 =( NAMED_UNIT ( * ) SI_UNIT ( $, .STERADIAN. ) SOLID_ANGLE_UNIT ( ) );
#10 = EDGE_LOOP ( 'NONE', ( #169, #266 ) ) ;
#11 = PLANE ( 'NONE',  #234 ) ;
#12 = AXIS2_PLACEMENT_3D ( 'NONE', #201, #152, #259 ) ;
#13 = ORIENTED_EDGE ( 'NONE', *, *, #333, .T. ) ;
#14 = ORGANIZATION ( 'UNSPECIFIED', 'UNSPECIFIED', '' ) ;
#15 = DIRECTION ( 'NONE',  ( 0.000000000000000000, 0.000000000000000000, -1.000000000000000000 ) ) ;
#16 = ORIENTED_EDGE ( 'NONE', *, *, #135, .F. ) ;
#17 = CYLINDRICAL_SURFACE ( 'NONE', #36, 12.69999999999999929 ) ;
#18 = DATE_AND_TIME ( #153, #63 ) ;
#19 = LOCAL_TIME ( 17, 5, 13.00000000000000000, #278 ) ;
#20 = CALENDAR_DATE ( 2020, 22, 12 ) ;
#21 = PERSON_AND_ORGANIZATION_ROLE ( 'design_owner' ) ;
#22 = DIRECTION ( 'NONE',  ( -1.000000000000000000, -0.000000000000000000, -0.000000000000000000 ) ) ;
#23 = APPLICATION_PROTOCOL_DEFINITION ( 'international standard', 'config_control_design', 1994, #55 ) ;
#24 = APPROVAL_STATUS ( 'not_yet_approved' ) ;
#25 = APPROVAL ( #151, 'UNSPECIFIED' ) ;
#26 = CARTESIAN_POINT ( 'NONE',  ( 1.250000000000000444, 0.000000000000000000, 5.000000000000000000 ) ) ;
#27 = PLANE ( 'NONE',  #335 ) ;
#28 = CC_DESIGN_SECURITY_CLASSIFICATION ( #178, ( #215 ) ) ;
#29 = DIRECTION ( 'NONE',  ( -1.000000000000000000, 0.000000000000000000, -0.000000000000000000 ) ) ;
#30 = CARTESIAN_POINT ( 'NONE',  ( 3.000000000000000000, 6.123233995736768255E-16, -5.000000000000001776 ) ) ;
#31 = VERTEX_POINT ( 'NONE', #60 ) ;
#32 = AXIS2_PLACEMENT_3D ( 'NONE', #176, #255, #134 ) ;
#33 = ORIENTED_EDGE ( 'NONE', *, *, #203, .T. ) ;
#34 = EDGE_LOOP ( 'NONE', ( #324, #87, #271, #273 ) ) ;
#35 = ORIENTED_EDGE ( 'NONE', *, *, #95, .T. ) ;
#36 = AXIS2_PLACEMENT_3D ( 'NONE', #111, #298, #173 ) ;
#37 = DIRECTION ( 'NONE',  ( 1.000000000000000000, 0.000000000000000000, 0.000000000000000000 ) ) ;
#38 = FACE_OUTER_BOUND ( 'NONE', #10, .T. ) ;
#39 = CARTESIAN_POINT ( 'NONE',  ( 3.000000000000000000, 0.000000000000000000, 0.000000000000000000 ) ) ;
#40 = APPLICATION_CONTEXT ( 'configuration controlled 3d designs of mechanical parts and assemblies' ) ;
#41 = DIRECTION ( 'NONE',  ( -1.000000000000000000, -0.000000000000000000, -0.000000000000000000 ) ) ;
#42 = DATE_TIME_ROLE ( 'creation_date' ) ;
#43 =( GEOMETRIC_REPRESENTATION_CONTEXT ( 3 ) GLOBAL_UNCERTAINTY_ASSIGNED_CONTEXT ( ( #282 ) ) GLOBAL_UNIT_ASSIGNED_CONTEXT ( ( #196, #296, #9 ) ) REPRESENTATION_CONTEXT ( 'NONE', 'WORKASPACE' ) );
#44 = APPROVAL_ROLE ( '' ) ;
#45 = CC_DESIGN_DATE_AND_TIME_ASSIGNMENT ( #204, #42, ( #209 ) ) ;
#46 = COORDINATED_UNIVERSAL_TIME_OFFSET ( 8, 0, .AHEAD. ) ;
#47 = PRODUCT_RELATED_PRODUCT_CATEGORY ( 'detail', '', ( #243 ) ) ;
#48 = CYLINDRICAL_SURFACE ( 'NONE', #85, 5.000000000000000888 ) ;
#49 = DESIGN_CONTEXT ( 'detailed design', #55, 'design' ) ;
#50 = AXIS2_PLACEMENT_3D ( 'NONE', #91, #191, #83 ) ;
#51 = CARTESIAN_POINT ( 'NONE',  ( -1.614212418857619014, 0.000000000000000000, 0.000000000000000000 ) ) ;
#52 = DIRECTION ( 'NONE',  ( -1.000000000000000000, -0.000000000000000000, -0.000000000000000000 ) ) ;
#53 = ORIENTED_EDGE ( 'NONE', *, *, #249, .F. ) ;
#54 = CARTESIAN_POINT ( 'NONE',  ( -1.250000000000000222, 5.000000000000000000, 0.000000000000000000 ) ) ;
#55 = APPLICATION_CONTEXT ( 'configuration controlled 3d designs of mechanical parts and assemblies' ) ;
#56 = EDGE_CURVE ( 'NONE', #166, #138, #229, .T. ) ;
#57 = APPROVAL_PERSON_ORGANIZATION ( #253, #247, #277 ) ;
#58 = EDGE_LOOP ( 'NONE', ( #113, #142, #297, #299 ) ) ;
#59 = CARTESIAN_POINT ( 'NONE',  ( 3.000000000000000000, 1.555301434917138433E-15, -12.69999999999999929 ) ) ;
#60 = CARTESIAN_POINT ( 'NONE',  ( -1.250000000000000222, 0.000000000000000000, 5.000000000000000888 ) ) ;
#61 = EDGE_LOOP ( 'NONE', ( #53, #245 ) ) ;
#62 = EDGE_CURVE ( 'NONE', #166, #109, #231, .T. ) ;
#63 = LOCAL_TIME ( 17, 5, 13.00000000000000000, #46 ) ;
#64 = FACE_OUTER_BOUND ( 'NONE', #34, .T. ) ;
#65 = PERSON_AND_ORGANIZATION_ROLE ( 'creator' ) ;
#66 = CARTESIAN_POINT ( 'NONE',  ( -1.614212418857619014, 0.000000000000000000, 0.000000000000000000 ) ) ;
#67 = DATE_AND_TIME ( #281, #321 ) ;
#68 = FACE_OUTER_BOUND ( 'NONE', #190, .T. ) ;
#69 = CC_DESIGN_PERSON_AND_ORGANIZATION_ASSIGNMENT ( #70, #98, ( #215 ) ) ;
#70 = PERSON_AND_ORGANIZATION ( #306, #14 ) ;
#71 = DIRECTION ( 'NONE',  ( -1.000000000000000000, -0.000000000000000000, -0.000000000000000000 ) ) ;
#72 = CARTESIAN_POINT ( 'NONE',  ( 0.000000000000000000, 0.000000000000000000, 0.000000000000000000 ) ) ;
#73 = DIRECTION ( 'NONE',  ( 0.000000000000000000, 0.000000000000000000, 1.000000000000000000 ) ) ;
#74 = CC_DESIGN_PERSON_AND_ORGANIZATION_ASSIGNMENT ( #302, #181, ( #178 ) ) ;
#75 = AXIS2_PLACEMENT_3D ( 'NONE', #235, #6, #214 ) ;
#76 = CARTESIAN_POINT ( 'NONE',  ( 3.000000000000000000, 12.69999999999999929, 0.000000000000000000 ) ) ;
#77 = CARTESIAN_POINT ( 'NONE',  ( -1.250000000000000222, 6.123233995736767268E-16, -5.000000000000000888 ) ) ;
#78 = AXIS2_PLACEMENT_3D ( 'NONE', #108, #236, #217 ) ;
#79 = PLANE ( 'NONE',  #154 ) ;
#80 = EDGE_LOOP ( 'NONE', ( #107, #140, #13, #172 ) ) ;
#81 = EDGE_CURVE ( 'NONE', #138, #187, #164, .T. ) ;
#82 = ORIENTED_EDGE ( 'NONE', *, *, #184, .T. ) ;
#83 = DIRECTION ( 'NONE',  ( 0.000000000000000000, 0.000000000000000000, 1.000000000000000000 ) ) ;
#84 = CIRCLE ( 'NONE', #12, 5.000000000000000000 ) ;
#85 = AXIS2_PLACEMENT_3D ( 'NONE', #51, #102, #334 ) ;
#86 = EDGE_CURVE ( 'NONE', #187, #138, #84, .T. ) ;
#87 = ORIENTED_EDGE ( 'NONE', *, *, #183, .T. ) ;
#88 = DIRECTION ( 'NONE',  ( -1.000000000000000000, -0.000000000000000000, -0.000000000000000000 ) ) ;
#89 = FACE_OUTER_BOUND ( 'NONE', #258, .T. ) ;
#90 = EDGE_LOOP ( 'NONE', ( #145, #320 ) ) ;
#91 = CARTESIAN_POINT ( 'NONE',  ( -1.614212418857619014, 0.000000000000000000, 0.000000000000000000 ) ) ;
#92 = AXIS2_PLACEMENT_3D ( 'NONE', #284, #238, #287 ) ;
#93 = DIRECTION ( 'NONE',  ( 0.000000000000000000, 0.000000000000000000, 1.000000000000000000 ) ) ;
#94 = ADVANCED_FACE ( 'NONE', ( #68 ), #304, .F. ) ;
#95 = EDGE_CURVE ( 'NONE', #295, #216, #128, .T. ) ;
#96 = DIRECTION ( 'NONE',  ( 1.000000000000000000, 0.000000000000000000, 0.000000000000000000 ) ) ;
#97 = AXIS2_PLACEMENT_3D ( 'NONE', #331, #228, #224 ) ;
#98 = PERSON_AND_ORGANIZATION_ROLE ( 'design_supplier' ) ;
#99 = AXIS2_PLACEMENT_3D ( 'NONE', #116, #41, #73 ) ;
#100 = PERSON_AND_ORGANIZATION ( #306, #14 ) ;
#101 = COORDINATED_UNIVERSAL_TIME_OFFSET ( 8, 0, .AHEAD. ) ;
#102 = DIRECTION ( 'NONE',  ( -1.000000000000000000, -0.000000000000000000, -0.000000000000000000 ) ) ;
#103 = DIRECTION ( 'NONE',  ( 1.000000000000000000, 0.000000000000000000, 0.000000000000000000 ) ) ;
#104 = EDGE_CURVE ( 'NONE', #216, #295, #286, .T. ) ;
#105 = DIRECTION ( 'NONE',  ( -0.000000000000000000, 0.000000000000000000, 1.000000000000000000 ) ) ;
#106 = VECTOR ( 'NONE', #212, 1000.000000000000000 ) ;
#107 = ORIENTED_EDGE ( 'NONE', *, *, #184, .F. ) ;
#108 = CARTESIAN_POINT ( 'NONE',  ( 3.000000000000000000, 0.000000000000000000, 0.000000000000000000 ) ) ;
#109 = VERTEX_POINT ( 'NONE', #30 ) ;
#110 = EDGE_LOOP ( 'NONE', ( #219, #220, #222, #318 ) ) ;
#111 = CARTESIAN_POINT ( 'NONE',  ( -1.614212418857619014, 0.000000000000000000, 0.000000000000000000 ) ) ;
#112 = ORIENTED_EDGE ( 'NONE', *, *, #86, .T. ) ;
#113 = ORIENTED_EDGE ( 'NONE', *, *, #283, .F. ) ;
#114 = VERTEX_POINT ( 'NONE', #240 ) ;
#115 = DIRECTION ( 'NONE',  ( -1.000000000000000000, -0.000000000000000000, -0.000000000000000000 ) ) ;
#116 = CARTESIAN_POINT ( 'NONE',  ( -3.000000000000000000, 0.000000000000000000, 0.000000000000000000 ) ) ;
#117 = CARTESIAN_POINT ( 'NONE',  ( -3.000000000000000000, 0.000000000000000000, 0.000000000000000000 ) ) ;
#118 = AXIS2_PLACEMENT_3D ( 'NONE', #39, #307, #119 ) ;
#119 = DIRECTION ( 'NONE',  ( 0.000000000000000000, 0.000000000000000000, 1.000000000000000000 ) ) ;
#120 = VECTOR ( 'NONE', #88, 1000.000000000000000 ) ;
#121 = APPROVAL_DATE_TIME ( #18, #247 ) ;
#122 = APPROVAL_DATE_TIME ( #67, #25 ) ;
#123 = CC_DESIGN_PERSON_AND_ORGANIZATION_ASSIGNMENT ( #230, #21, ( #243 ) ) ;
#124 = PERSON_AND_ORGANIZATION ( #306, #14 ) ;
#125 = VECTOR ( 'NONE', #242, 1000.000000000000000 ) ;
#126 = MECHANICAL_CONTEXT ( 'NONE', #40, 'mechanical' ) ;
#127 = FACE_OUTER_BOUND ( 'NONE', #58, .T. ) ;
#128 = CIRCLE ( 'NONE', #99, 12.69999999999999929 ) ;
#129 = DIRECTION ( 'NONE',  ( -1.000000000000000000, 0.000000000000000000, -0.000000000000000000 ) ) ;
#130 = APPROVAL_PERSON_ORGANIZATION ( #332, #25, #177 ) ;
#131 = CIRCLE ( 'NONE', #226, 12.69999999999999929 ) ;
#132 = ADVANCED_BREP_SHAPE_REPRESENTATION ( 'Q-AZHWP-10-1053-M', ( #239, #144 ), #43 ) ;
#133 = CARTESIAN_POINT ( 'NONE',  ( 3.000000000000000000, 0.000000000000000000, 0.000000000000000000 ) ) ;
#134 = DIRECTION ( 'NONE',  ( 0.000000000000000000, 0.000000000000000000, 1.000000000000000000 ) ) ;
#135 = EDGE_CURVE ( 'NONE', #114, #269, #131, .T. ) ;
#136 = LINE ( 'NONE', #211, #125 ) ;
#137 = CIRCLE ( 'NONE', #171, 5.000000000000000888 ) ;
#138 = VERTEX_POINT ( 'NONE', #26 ) ;
#139 = ORIENTED_EDGE ( 'NONE', *, *, #104, .F. ) ;
#140 = ORIENTED_EDGE ( 'NONE', *, *, #223, .T. ) ;
#141 = DIRECTION ( 'NONE',  ( -1.000000000000000000, -0.000000000000000000, -0.000000000000000000 ) ) ;
#142 = ORIENTED_EDGE ( 'NONE', *, *, #62, .F. ) ;
#143 = DIRECTION ( 'NONE',  ( 0.000000000000000000, 0.000000000000000000, 1.000000000000000000 ) ) ;
#144 = AXIS2_PLACEMENT_3D ( 'NONE', #72, #179, #96 ) ;
#145 = ORIENTED_EDGE ( 'NONE', *, *, #81, .F. ) ;
#146 = LINE ( 'NONE', #147, #262 ) ;
#147 = CARTESIAN_POINT ( 'NONE',  ( -1.614212418857619014, 0.000000000000000000, 12.69999999999999929 ) ) ;
#148 = ADVANCED_FACE ( 'NONE', ( #160 ), #188, .F. ) ;
#149 = COORDINATED_UNIVERSAL_TIME_OFFSET ( 8, 0, .AHEAD. ) ;
#150 = AXIS2_PLACEMENT_3D ( 'NONE', #200, #115, #93 ) ;
#151 = APPROVAL_STATUS ( 'not_yet_approved' ) ;
#152 = DIRECTION ( 'NONE',  ( -1.000000000000000000, -0.000000000000000000, -0.000000000000000000 ) ) ;
#153 = CALENDAR_DATE ( 2020, 22, 12 ) ;
#154 = AXIS2_PLACEMENT_3D ( 'NONE', #263, #103, #311 ) ;
#155 = ADVANCED_FACE ( 'NONE', ( #127 ), #48, .F. ) ;
#156 = DIRECTION ( 'NONE',  ( 0.000000000000000000, 0.000000000000000000, 1.000000000000000000 ) ) ;
#157 = CARTESIAN_POINT ( 'NONE',  ( 3.000000000000000000, 0.000000000000000000, 5.000000000000001776 ) ) ;
#158 = FACE_BOUND ( 'NONE', #61, .T. ) ;
#159 = CIRCLE ( 'NONE', #205, 5.000000000000001776 ) ;
#160 = FACE_OUTER_BOUND ( 'NONE', #110, .T. ) ;
#161 = DIRECTION ( 'NONE',  ( -1.000000000000000000, -0.000000000000000000, -0.000000000000000000 ) ) ;
#162 = ORIENTED_EDGE ( 'NONE', *, *, #135, .T. ) ;
#163 = FACE_OUTER_BOUND ( 'NONE', #80, .T. ) ;
#164 = CIRCLE ( 'NONE', #97, 5.000000000000000000 ) ;
#165 = CC_DESIGN_APPROVAL ( #25, ( #209 ) ) ;
#166 = VERTEX_POINT ( 'NONE', #157 ) ;
#167 = ADVANCED_FACE ( 'NONE', ( #261 ), #27, .F. ) ;
#168 = DIRECTION ( 'NONE',  ( -1.000000000000000000, -0.000000000000000000, -0.000000000000000000 ) ) ;
#169 = ORIENTED_EDGE ( 'NONE', *, *, #257, .F. ) ;
#170 = CARTESIAN_POINT ( 'NONE',  ( -1.250000000000000222, 0.000000000000000000, 0.000000000000000000 ) ) ;
#171 = AXIS2_PLACEMENT_3D ( 'NONE', #170, #322, #319 ) ;
#172 = ORIENTED_EDGE ( 'NONE', *, *, #95, .F. ) ;
#173 = DIRECTION ( 'NONE',  ( 0.000000000000000000, 0.000000000000000000, 1.000000000000000000 ) ) ;
#174 = CC_DESIGN_DATE_AND_TIME_ASSIGNMENT ( #232, #208, ( #178 ) ) ;
#175 = COORDINATED_UNIVERSAL_TIME_OFFSET ( 8, 0, .AHEAD. ) ;
#176 = CARTESIAN_POINT ( 'NONE',  ( -3.000000000000000000, 0.000000000000000000, 0.000000000000000000 ) ) ;
#177 = APPROVAL_ROLE ( '' ) ;
#178 = SECURITY_CLASSIFICATION ( '', '', #280 ) ;
#179 = DIRECTION ( 'NONE',  ( 0.000000000000000000, 0.000000000000000000, 1.000000000000000000 ) ) ;
#180 = EDGE_CURVE ( 'NONE', #31, #7, #136, .T. ) ;
#181 = PERSON_AND_ORGANIZATION_ROLE ( 'classification_officer' ) ;
#182 = CIRCLE ( 'NONE', #244, 5.000000000000000000 ) ;
#183 = EDGE_CURVE ( 'NONE', #248, #31, #301, .T. ) ;
#184 = EDGE_CURVE ( 'NONE', #269, #295, #1, .T. ) ;
#185 = EDGE_LOOP ( 'NONE', ( #252, #33 ) ) ;
#186 = PLANE ( 'NONE',  #294 ) ;
#187 = VERTEX_POINT ( 'NONE', #312 ) ;
#188 = CYLINDRICAL_SURFACE ( 'NONE', #92, 5.000000000000000888 ) ;
#189 = ADVANCED_FACE ( 'NONE', ( #158, #315 ), #79, .F. ) ;
#190 = EDGE_LOOP ( 'NONE', ( #241, #292, #112, #246 ) ) ;
#191 = DIRECTION ( 'NONE',  ( -1.000000000000000000, -0.000000000000000000, -0.000000000000000000 ) ) ;
#192 = VECTOR ( 'NONE', #71, 1000.000000000000000 ) ;
#193 = PRODUCT_DEFINITION_SHAPE ( 'NONE', 'NONE',  #209 ) ;
#194 = ADVANCED_FACE ( 'NONE', ( #291, #213 ), #186, .F. ) ;
#195 = CARTESIAN_POINT ( 'NONE',  ( -3.000000000000000000, 0.000000000000000000, 5.000000000000000000 ) ) ;
#196 =( LENGTH_UNIT ( ) NAMED_UNIT ( * ) SI_UNIT ( .MILLI., .METRE. ) );
#197 = EDGE_LOOP ( 'NONE', ( #16, #8 ) ) ;
#198 = CARTESIAN_POINT ( 'NONE',  ( -1.614212418857619014, 6.123233995736767268E-16, -5.000000000000000888 ) ) ;
#199 = CARTESIAN_POINT ( 'NONE',  ( -3.000000000000000000, 6.123233995736766282E-16, -5.000000000000000000 ) ) ;
#200 = CARTESIAN_POINT ( 'NONE',  ( -1.614212418857619014, 0.000000000000000000, 0.000000000000000000 ) ) ;
#201 = CARTESIAN_POINT ( 'NONE',  ( 1.250000000000000444, 0.000000000000000000, 0.000000000000000000 ) ) ;
#202 = DATE_AND_TIME ( #20, #5 ) ;
#203 = EDGE_CURVE ( 'NONE', #109, #166, #159, .T. ) ;
#204 = DATE_AND_TIME ( #256, #19 ) ;
#205 = AXIS2_PLACEMENT_3D ( 'NONE', #133, #52, #265 ) ;
#206 = CARTESIAN_POINT ( 'NONE',  ( -1.614212418857619014, 0.000000000000000000, 5.000000000000000888 ) ) ;
#207 = CALENDAR_DATE ( 2020, 22, 12 ) ;
#208 = DATE_TIME_ROLE ( 'classification_date' ) ;
#209 = PRODUCT_DEFINITION ( 'UNKNOWN', '', #215, #49 ) ;
#210 = LOCAL_TIME ( 17, 5, 13.00000000000000000, #175 ) ;
#211 = CARTESIAN_POINT ( 'NONE',  ( -1.614212418857619014, 0.000000000000000000, 5.000000000000000888 ) ) ;
#212 = DIRECTION ( 'NONE',  ( -1.000000000000000000, -0.000000000000000000, -0.000000000000000000 ) ) ;
#213 = FACE_BOUND ( 'NONE', #185, .T. ) ;
#214 = DIRECTION ( 'NONE',  ( 0.000000000000000000, 0.000000000000000000, -1.000000000000000000 ) ) ;
#215 = PRODUCT_DEFINITION_FORMATION_WITH_SPECIFIED_SOURCE ( 'ANY', '', #243, .NOT_KNOWN. ) ;
#216 = VERTEX_POINT ( 'NONE', #313 ) ;
#217 = DIRECTION ( 'NONE',  ( 0.000000000000000000, 0.000000000000000000, 1.000000000000000000 ) ) ;
#218 = ORIENTED_EDGE ( 'NONE', *, *, #333, .F. ) ;
#219 = ORIENTED_EDGE ( 'NONE', *, *, #257, .T. ) ;
#220 = ORIENTED_EDGE ( 'NONE', *, *, #323, .T. ) ;
#221 = APPLICATION_PROTOCOL_DEFINITION ( 'international standard', 'config_control_design', 1994, #40 ) ;
#222 = ORIENTED_EDGE ( 'NONE', *, *, #237, .T. ) ;
#223 = EDGE_CURVE ( 'NONE', #269, #114, #268, .T. ) ;
#224 = DIRECTION ( 'NONE',  ( 0.000000000000000000, 0.000000000000000000, 1.000000000000000000 ) ) ;
#225 = DIRECTION ( 'NONE',  ( -1.000000000000000000, -0.000000000000000000, -0.000000000000000000 ) ) ;
#226 = AXIS2_PLACEMENT_3D ( 'NONE', #4, #161, #264 ) ;
#227 = SHAPE_DEFINITION_REPRESENTATION ( #193, #132 ) ;
#228 = DIRECTION ( 'NONE',  ( -1.000000000000000000, -0.000000000000000000, -0.000000000000000000 ) ) ;
#229 = LINE ( 'NONE', #206, #192 ) ;
#230 = PERSON_AND_ORGANIZATION ( #306, #14 ) ;
#231 = CIRCLE ( 'NONE', #118, 5.000000000000001776 ) ;
#232 = DATE_AND_TIME ( #207, #210 ) ;
#233 = APPROVAL ( #24, 'UNSPECIFIED' ) ;
#234 = AXIS2_PLACEMENT_3D ( 'NONE', #54, #37, #15 ) ;
#235 = CARTESIAN_POINT ( 'NONE',  ( -1.250000000000000222, 0.000000000000000000, 0.000000000000000000 ) ) ;
#236 = DIRECTION ( 'NONE',  ( -1.000000000000000000, -0.000000000000000000, -0.000000000000000000 ) ) ;
#237 = EDGE_CURVE ( 'NONE', #250, #7, #279, .T. ) ;
#238 = DIRECTION ( 'NONE',  ( -1.000000000000000000, -0.000000000000000000, -0.000000000000000000 ) ) ;
#239 = MANIFOLD_SOLID_BREP ( 'Ðý×', #267 ) ;
#240 = CARTESIAN_POINT ( 'NONE',  ( 3.000000000000000000, 0.000000000000000000, 12.69999999999999929 ) ) ;
#241 = ORIENTED_EDGE ( 'NONE', *, *, #203, .F. ) ;
#242 = DIRECTION ( 'NONE',  ( -1.000000000000000000, -0.000000000000000000, -0.000000000000000000 ) ) ;
#243 = PRODUCT ( 'Q-AZHWP-10-1053-M', 'Q-AZHWP-10-1053-M', '', ( #126 ) ) ;
#244 = AXIS2_PLACEMENT_3D ( 'NONE', #117, #225, #143 ) ;
#245 = ORIENTED_EDGE ( 'NONE', *, *, #237, .F. ) ;
#246 = ORIENTED_EDGE ( 'NONE', *, *, #56, .F. ) ;
#247 = APPROVAL ( #305, 'UNSPECIFIED' ) ;
#248 = VERTEX_POINT ( 'NONE', #77 ) ;
#249 = EDGE_CURVE ( 'NONE', #7, #250, #182, .T. ) ;
#250 = VERTEX_POINT ( 'NONE', #199 ) ;
#251 = CC_DESIGN_APPROVAL ( #233, ( #215 ) ) ;
#252 = ORIENTED_EDGE ( 'NONE', *, *, #62, .T. ) ;
#253 = PERSON_AND_ORGANIZATION ( #306, #14 ) ;
#254 = CC_DESIGN_APPROVAL ( #247, ( #178 ) ) ;
#255 = DIRECTION ( 'NONE',  ( -1.000000000000000000, -0.000000000000000000, -0.000000000000000000 ) ) ;
#256 = CALENDAR_DATE ( 2020, 22, 12 ) ;
#257 = EDGE_CURVE ( 'NONE', #31, #248, #137, .T. ) ;
#258 = EDGE_LOOP ( 'NONE', ( #162, #82, #139, #218 ) ) ;
#259 = DIRECTION ( 'NONE',  ( 0.000000000000000000, 0.000000000000000000, 1.000000000000000000 ) ) ;
#260 = PERSON_AND_ORGANIZATION_ROLE ( 'creator' ) ;
#261 = FACE_OUTER_BOUND ( 'NONE', #90, .T. ) ;
#262 = VECTOR ( 'NONE', #168, 1000.000000000000000 ) ;
#263 = CARTESIAN_POINT ( 'NONE',  ( -3.000000000000000000, 5.000000000000000000, 0.000000000000000000 ) ) ;
#264 = DIRECTION ( 'NONE',  ( 0.000000000000000000, 0.000000000000000000, 1.000000000000000000 ) ) ;
#265 = DIRECTION ( 'NONE',  ( 0.000000000000000000, 0.000000000000000000, 1.000000000000000000 ) ) ;
#266 = ORIENTED_EDGE ( 'NONE', *, *, #183, .F. ) ;
#267 = CLOSED_SHELL ( 'NONE', ( #276, #148, #94, #167, #155, #272, #189, #328, #194, #325 ) ) ;
#268 = CIRCLE ( 'NONE', #78, 12.69999999999999929 ) ;
#269 = VERTEX_POINT ( 'NONE', #59 ) ;
#270 = LINE ( 'NONE', #300, #329 ) ;
#271 = ORIENTED_EDGE ( 'NONE', *, *, #180, .T. ) ;
#272 = ADVANCED_FACE ( 'NONE', ( #64 ), #327, .F. ) ;
#273 = ORIENTED_EDGE ( 'NONE', *, *, #249, .T. ) ;
#274 = LINE ( 'NONE', #198, #120 ) ;
#275 = CYLINDRICAL_SURFACE ( 'NONE', #50, 12.69999999999999929 ) ;
#276 = ADVANCED_FACE ( 'NONE', ( #89 ), #275, .T. ) ;
#277 = APPROVAL_ROLE ( '' ) ;
#278 = COORDINATED_UNIVERSAL_TIME_OFFSET ( 8, 0, .AHEAD. ) ;
#279 = CIRCLE ( 'NONE', #314, 5.000000000000000000 ) ;
#280 = SECURITY_CLASSIFICATION_LEVEL ( 'unclassified' ) ;
#281 = CALENDAR_DATE ( 2020, 22, 12 ) ;
#282 = UNCERTAINTY_MEASURE_WITH_UNIT (LENGTH_MEASURE( 1.000000000000000082E-05 ), #196, 'distance_accuracy_value', 'NONE');
#283 = EDGE_CURVE ( 'NONE', #109, #187, #274, .T. ) ;
#284 = CARTESIAN_POINT ( 'NONE',  ( -1.614212418857619014, 0.000000000000000000, 0.000000000000000000 ) ) ;
#285 = CARTESIAN_POINT ( 'NONE',  ( -1.614212418857619014, 1.555301434917138433E-15, -12.69999999999999929 ) ) ;
#286 = CIRCLE ( 'NONE', #32, 12.69999999999999929 ) ;
#287 = DIRECTION ( 'NONE',  ( 0.000000000000000000, 0.000000000000000000, 1.000000000000000000 ) ) ;
#288 = DIRECTION ( 'NONE',  ( -0.000000000000000000, 0.000000000000000000, 1.000000000000000000 ) ) ;
#289 = CC_DESIGN_PERSON_AND_ORGANIZATION_ASSIGNMENT ( #100, #260, ( #209 ) ) ;
#290 = ORIENTED_EDGE ( 'NONE', *, *, #104, .T. ) ;
#291 = FACE_OUTER_BOUND ( 'NONE', #197, .T. ) ;
#292 = ORIENTED_EDGE ( 'NONE', *, *, #283, .T. ) ;
#293 = CARTESIAN_POINT ( 'NONE',  ( -3.000000000000000000, 1.555301434917138433E-15, -12.69999999999999929 ) ) ;
#294 = AXIS2_PLACEMENT_3D ( 'NONE', #76, #29, #288 ) ;
#295 = VERTEX_POINT ( 'NONE', #293 ) ;
#296 =( NAMED_UNIT ( * ) PLANE_ANGLE_UNIT ( ) SI_UNIT ( $, .RADIAN. ) );
#297 = ORIENTED_EDGE ( 'NONE', *, *, #56, .T. ) ;
#298 = DIRECTION ( 'NONE',  ( -1.000000000000000000, -0.000000000000000000, -0.000000000000000000 ) ) ;
#299 = ORIENTED_EDGE ( 'NONE', *, *, #81, .T. ) ;
#300 = CARTESIAN_POINT ( 'NONE',  ( -1.614212418857619014, 6.123233995736767268E-16, -5.000000000000000888 ) ) ;
#301 = CIRCLE ( 'NONE', #75, 5.000000000000000888 ) ;
#302 = PERSON_AND_ORGANIZATION ( #306, #14 ) ;
#303 = CC_DESIGN_PERSON_AND_ORGANIZATION_ASSIGNMENT ( #308, #65, ( #215 ) ) ;
#304 = CYLINDRICAL_SURFACE ( 'NONE', #309, 5.000000000000000888 ) ;
#305 = APPROVAL_STATUS ( 'not_yet_approved' ) ;
#306 = PERSON ( 'UNSPECIFIED', 'UNSPECIFIED', 'UNSPECIFIED', ('UNSPECIFIED'), ('UNSPECIFIED'), ('UNSPECIFIED') ) ;
#307 = DIRECTION ( 'NONE',  ( -1.000000000000000000, -0.000000000000000000, -0.000000000000000000 ) ) ;
#308 = PERSON_AND_ORGANIZATION ( #306, #14 ) ;
#309 = AXIS2_PLACEMENT_3D ( 'NONE', #66, #22, #326 ) ;
#310 = APPROVAL_PERSON_ORGANIZATION ( #124, #233, #44 ) ;
#311 = DIRECTION ( 'NONE',  ( 0.000000000000000000, 0.000000000000000000, -1.000000000000000000 ) ) ;
#312 = CARTESIAN_POINT ( 'NONE',  ( 1.250000000000000444, 6.123233995736766282E-16, -5.000000000000000000 ) ) ;
#313 = CARTESIAN_POINT ( 'NONE',  ( -3.000000000000000000, 0.000000000000000000, 12.69999999999999929 ) ) ;
#314 = AXIS2_PLACEMENT_3D ( 'NONE', #317, #2, #156 ) ;
#315 = FACE_OUTER_BOUND ( 'NONE', #316, .T. ) ;
#316 = EDGE_LOOP ( 'NONE', ( #290, #35 ) ) ;
#317 = CARTESIAN_POINT ( 'NONE',  ( -3.000000000000000000, 0.000000000000000000, 0.000000000000000000 ) ) ;
#318 = ORIENTED_EDGE ( 'NONE', *, *, #180, .F. ) ;
#319 = DIRECTION ( 'NONE',  ( 0.000000000000000000, 0.000000000000000000, -1.000000000000000000 ) ) ;
#320 = ORIENTED_EDGE ( 'NONE', *, *, #86, .F. ) ;
#321 = LOCAL_TIME ( 17, 5, 13.00000000000000000, #101 ) ;
#322 = DIRECTION ( 'NONE',  ( 1.000000000000000000, 0.000000000000000000, 0.000000000000000000 ) ) ;
#323 = EDGE_CURVE ( 'NONE', #248, #250, #270, .T. ) ;
#324 = ORIENTED_EDGE ( 'NONE', *, *, #323, .F. ) ;
#325 = ADVANCED_FACE ( 'NONE', ( #38 ), #11, .F. ) ;
#326 = DIRECTION ( 'NONE',  ( 0.000000000000000000, 0.000000000000000000, 1.000000000000000000 ) ) ;
#327 = CYLINDRICAL_SURFACE ( 'NONE', #150, 5.000000000000000888 ) ;
#328 = ADVANCED_FACE ( 'NONE', ( #163 ), #17, .T. ) ;
#329 = VECTOR ( 'NONE', #141, 1000.000000000000000 ) ;
#330 = APPROVAL_DATE_TIME ( #202, #233 ) ;
#331 = CARTESIAN_POINT ( 'NONE',  ( 1.250000000000000444, 0.000000000000000000, 0.000000000000000000 ) ) ;
#332 = PERSON_AND_ORGANIZATION ( #306, #14 ) ;
#333 = EDGE_CURVE ( 'NONE', #114, #216, #146, .T. ) ;
#334 = DIRECTION ( 'NONE',  ( 0.000000000000000000, 0.000000000000000000, 1.000000000000000000 ) ) ;
#335 = AXIS2_PLACEMENT_3D ( 'NONE', #3, #129, #105 ) ;
ENDSEC;
END-ISO-10303-21;
